rock
 
|tablatures   |lyrics   |discussion forums   |more tabs @ XGuitar.com

Offspring tabs

Come Out Swinging bass tab

Offspring
Come Out Swinging
Enemy Offline

*this song is played with a pic*

Intro
|----------------------------|          |--------------------------|
|-------------4-5-5------5-4-|          |--------------------------|
|-7-7-5-7-5-7-------5-5------|          |7-7-7-7-7-7-7-7-7-7-7-7-7-|
|----------------------------|4x then   |0-0-0-0-0-0-0-0-0-0-0-0-0-|

verse/other part
|-------------------------------------|  |-------------------------------------|
|-------------------------------------|  |-------------------------------------|
|-------------------------------------|  |-------------------------------------|
|-0-0-0-0--3-3-3-3--5-5-5-5-5-5-5-5-5-|  |0-0-0-0--3-3-3-3--5-5-5-5--8-8-10-10-|

1st chours
|-----------------------------------|---------------------------|
|-----------------------------------|---------------------------|
|-5-7-5-7-5-------------------55-33-|-5-7-5-7-5----------5-3----|
|-----------0-2-3-33--5-3-5-3-------|-----------0-2-3-33-----3-5|back to intro

add this to the end of 2nd chours
|-------------------------------------------|
|-------------------------------------------|
|-3--3-3-3--3--3-3-3--2--2-2-2--5--5-5-5----|
|-----------------------------------------0-|

bridge
|
|
|-7-7-7-7-7-7-7--3-3-3-3-3-3-0-0-0-0-0-0-5-5-5-5-5-5-5-2-2-2-2-2-2-|
|

mix uop the 2 chourses
last part
|----------------------|
|----------------------|
|-5-3--5-3--5-3--------|
|----------------5-3-5-|

you need to play it with tha cd playin cause the mofo mixes the whole damn song
up so its kinda hard 2 tab out
  development and support by
dmitry ivanov