rock
 
|tablatures   |lyrics   |discussion forums   |more tabs @ XGuitar.com

Offspring tabs

Come Out And Play bass tab

Come Out And Play by Offspring





  Intro                              (x8)

G:------8------|-------------------------|

D:--|=======|--|*-----------------------*|

A:-------------|*--2----/5----r------0--*|

E:-------------|------------------2------|





  %

                                (x3)

G:-----------------------------------|------------------------------|

D:*---------------------------------*|------------------------------|

A:*--2-----------0---2-----------5--*|--2-----------0--2-----R------|

E:------2----2-----------2-----------|------2----2------------------|





                                               (x4)

G:--------------------------------------------------|

D:*----------------------------------0-------------*|

A:*--2--2--(2)-----------0--2--2--2------------0---*|

E:--------------2-----2---------------------2-------|





G:---------------------------------------------------------------------------|

D:--2----5--(5)--4--------------2-----5--5--4--------------------------------|

A:-------------------2---2--5-------------------2---2--5--2--2--(2)----------|

E:-------------------------------------------------------------------2-----2-|





G:----------------------------------------------------------|

D:--------------0-------------------------------------------|

A:-0---2--2--2-------------0---9---9-9-9-9-9-9-9-9-9-9-9-9--|

E:----------------------2-----------------------------------|





G:--------------------------------------------------------------------|

D:*------------------------------------------------------------------*|

A:*--2---/5--r-----0---2---/5--r-----0---2---/5--r-----0---2---R-----*|

E:--------------2-----------------2-----------------2-----------------|





G:---------------------------------------------------------------------------|

D:----------------------------------------2--(2)--2--------------------------|

A:--2---/5--r------0---2---/5--r------0------------------3----3---(3)--3---2-|

E:--------------2------------------2-----------------------------------------|



                                                             D.S. %

                                                             al CODA

G:---------------------------------------------------------------------|

D:------------------------------------------------0--------------------|

A:--/5--r-------0--(0)--------------------0---2-------r-------0---2----|

E:-----------2-----------2----2--2--2--2-------------------2-----------|



   *CODA*

                                                                    (x4)

   G:--------------------------------|--------------------------------------|

   D:--------------------------------|*------------------------------------*|

   A:--2---/5---------0---2----------|*--2------------0---2-------(5)--5---*|

   E:--------------2-----------------|-------2-----2---------2--------------|





G:---------------------------------------------------------------------------|

D:--2-----5--(5)---4----------------2---5--5---4-----------------------------|

A:----------------------2----2--5--------------------2----2--5---2--2--(2)---|

E:--------------------------------------------------------------------------2|





G:-------------------------------------------------------------------|

D:--------------------0----------------------------------------------|

A:--------0--2--2--2-------------0---9----9-9-9-9--9-9-9-9-9-9-9-9---|

E:-----2---------------------2---------------------------------------|





G:-----------------------------------------------------------------------|

D:*---------------------------------------------------------------------*|

A:*--2---/5--r-----0---2---/5--r-----0---2---/5--r-----0---2-----R------*|

E:--------------2-----------------2-----------------2--------------------|





G:---------------------------------------------------------------------------|

D:-------------------------------------2----2--r-----------------------------|

A:--2---/5--r-----0---2---/5--r-----0----------------3--3--3--3--3--3--2---/5|

E:-------------2-----------------2-------------------------------------------|





G:-------------------------2-2----------------------------------|

D:--------------------4--r------r-------------------------------|

A:--r------------------------------2---/5--r-----0---2----R-----|

E:-----2--5\\--2---2---------------------------2-----------------|

+----------------------------------------+---------------------------------+

|  ____    ____                          |         acanterb@vt.edu         |

| (    `--'  .-'               _T_T_T_T_ |  ___                 __         |

| |8| O  O  |||||||||||||||||||[o o o o/ | /   \\  |   | |\\  /| |  | \\   /  |

| (__,--.____\\                 `~~~`--'  | |  ___ |   | | \\/ | |--+. \\ /   |

|                                        | \\____| |___| |    | |___|  |    |

|    Bassist for Division by Zero        |                                 |

|                                                                          |

|   Check out the Web Page! http://sfbox.vt.edu:10021/R/rconnell/band.html |

|                                                                          |

+----------------------------------------+---------------------------------+
  development and support by
dmitry ivanov