rock
 
|tablatures   |lyrics   |discussion forums   |more tabs @ XGuitar.com

Offspring tabs

Change The World guitar tab

Album: Ixnay on the Hombre
Year: 1997
Track: 14
Title: Change the world

# INTRO #     X6
E------------------------------------4-4-4-4-4-5-4--------------------|
B------------------------------------5-5-5-5-5-5-5--4-4-5-4-----------|
G---2-2-2-2-1-1-2-2-4-4-4-2-2-2-2-1-----------------4-4-4-4-6\4-4/6---|
D---------------------------------------------------------------------|
A---------------------------------------------------------------------|
E---------------------------------------------------------------------|
    \__________palm-muted_________________/         \__palm-muted__/

# INTRO2 #   X2   (during INTRO)
E-------------------|
B----------------*--|
G----*---*---*--4---|  *=play 8X
D---4---4---2---4---|
A---4---4---2---2---|
E---2---2---0-------|
   \__palm-mute__/

# INTRO3 #                       # INTRO4 #   X2   (during INTRO3)
E--------|                       E------------------------|
B-----*--|                       B-----*----*----*--------|
G---11---|  *=play 20X           G---11---11----9-----*---|
D---11---|                       D---11---11----9----9----|  *=play 5X
A----9---|                       A----9----9----7----9----|
E--------|                       E-------------------7----|

# VERSE #  
E------------------------------|
B------------------------------|
G--/11------11-9----9----------|
D--/11------11-9----9-9----9---|
A--/-9-------9-7----7-9----9---|
E---------------------7----7---|

# PRE-CHORUS #       *=play 8X
E------------------------------------------------|
B--------*----------------*----------------------|
G----*--9----*---*----*--9----*---*-------7--9---|
D--/7---9---9---9----7---9---9---9---11---7--9---|
A--/7---7---9---9----7---7---9---9---11---5--7---|
E--/5-------7---7----5-------7---7----9----------|
   \________________palm-muted__________/

# CHORUS #      *=play 6X
E-----------------------------------------------|
B-----*----*---------*----*----*---------*------|
G---11----9-----*--11---11----9-----*--11-------|
D---11----9----9---11---11----9----9---11---4---|
A----9----7----9----9----9----7----9----9---4---|
E--------------7-------------------7--------2---|

->Play VERSE, PRE-CHORUS and CHORUS (without last chord).


# CHORUS2 #   (...and since you ainīt...)  *=play 6X
E------------------------------------------------------------------>
B-----*----*------------------*----------------------*------------->
G---11----9-----*-------7-9-11--------------9-9-9--11-------------->
D---11----9----9---11---7-9-11---11-11-11---9-9-9--11---11-11-11--->
A----9----7----9---11---5-7--9---11-11-11---7-7-7---9---11-11-11--->
E--------------7----9-------------9--9--9----------------9--9--9--->

E-----------------------------------------------|
B------------*----------------------------------|
G---9-9-9--11------------9-9---11---------------|
D---9-9-9--11---11-11----9-9---11----------/4---|
A---7-7-7---9---11-11----7-7----9----------/4---|
E----------------9--9----------------------/2---|

->Play INTRO X6 or INTRO2 X6, INTRO3 or INTRO4 X2, PRE-CHORUS, CHORUS and CHORUS2.
  development and support by
dmitry ivanov