rock
 
|tablatures   |lyrics   |discussion forums   |more tabs @ XGuitar.com

Offspring tabs

Change The World bass tab

Bass tab for Change The World by The Offspring


G|---------------------------------|
D|---------------------------------|
A|-------------------------2-2-2-2-|
E|-2-2-2-2-2-2-2-2-0-0-0-0---------|

This is the main riff, it is used for the verse and the 'End of Smash' riff.  The number of notes played and the rhythm changes depending on which part it is, but the notes themselves are the same.  (The above rhythm is for the first few verses).


Chorus
								  x2
G|-----------------------------------------------------------------|
D|-----------------2-2-2-2-2-2-2-2-----------------4-4-4-4-4-4-4-4-|
A|---------------------------------2-2-2-2-2-2-2-2-----------------|
E|-1-1-1-1-1-1-1-1-------------------------------------------------|

Then this bit (not the first time though):

G|---------------------------------------------------------|
D|-----------------2-2-2-2-2-2-2-2-------------------------|
A|---------------------------------2-2-2-2-2-2-2-2---------|
E|-1-1-1-1-1-1-1-1---------------------------------2-2-2-2-|

				  x2
G|---------------------------------|---------------------------------|
D|-4-4-4-4-4-4-4-4-----------------|-4-4-4-4-4-4-4-4-------------4-r-|
A|-------------------------7-7-7-7-|-----------------------7-7-r-----|
E|-----------------5-5-5-5---------|-----------------5-5-r-----------|


That's about all you should need.  It SOUNDS right; to me at least.
  development and support by
dmitry ivanov