rock
 
|tablatures   |lyrics   |discussion forums   |more tabs @ XGuitar.com

Offspring tabs

Cant Get My Head Around You guitar tab

Artist: The Offspring
Song: Can’t Get My Head Around You
Tunning: Standard
*=Harmonic

Tabbed by: GuitarMan1121 a.k.a. Sullivan \\"Fast Fingers\\" Magpie. Haha.
P.S.- Charles, Mike, and Darren my brothas for other mothas, we kick ace!
Please leave any comments you have, thank you.


Clean On
E-----------------
B-----------------
G-9-9-9-9-9-9-9-9-
D-9-9-9-9-9-9-9-9-
A-7-7-7-7-7-7-7-7-
E-----------------

E--------------------------------------------------------------
B--------------------------------------------------------------
G--------------5/7-7--------------------------5/7-7------------
D--2-2--4/5-5--5/7-7--5/7-7-7-7---2-2--4/5-5--5/7-7--5/7-7-7-7-
A--2-2--4/5-5--3/5-5--5/7-7-7-7---2-2--4/5-5--3/5-5--5/7-7-7-7-
E--0-0--2/3-3---------3/5-5-5-5---0-0--2/3-3---------3/5-5-5-5-
  -----------------------------PM------------------------------

E------------------------------------------------------
B------------------------------------------------------
G--------------5/7-7--------------------------5/7-7----
D--2-2--4/5-5--5/7-7--5/7-7-7-7---2-2--4/5-5--5/7-7--7-
A--2-2--4/5-5--3/5-5--5/7-7-7-7---2-2--4/5-5--3/5-5--7-
E--0-0--2/3-3---------3/5-5-5-5---0-0--2/3-3---------5-
  -----------------------------PM----------------------

Distortion On
E--------------------------------------------------------------
B--------------------------------------------------------------
G--------------5/7-7--------------------------5/7-7------------
D--2-2--4/5-5--5/7-7--5/7-7-7-7---2-2--4/5-5--5/7-7--5/7-7-7-7-
A--2-2--4/5-5--3/5-5--5/7-7-7-7---2-2--4/5-5--3/5-5--5/7-7-7-7-
E--0-0--2/3-3---------3/5-5-5-5---0-0--2/3-3---------3/5-5-5-5-

E--------------------------------------------------------------
B--------------------------------------------------------------
G--------------5/7-7--------------------------5/7-7------------
D--2-2--4/5-5--5/7-7--5/7-7-7-7---2-2--4/5-5--5/7-7--5/7-7-7-7-
A--2-2--4/5-5--3/5-5--5/7-7-7-7---2-2--4/5-5--3/5-5--5/7-7-7-7-
E--0-0--2/3-3---------3/5-5-5-5---0-0--2/3-3---------3/5-5-5-5-

E------------------------------------------------------
B------------------------------------------------------
G------------------------------------------------------
D--10-----2-2--2-2--2-2--2-2--2-2--10------12-----9----
A--10-x16-2-2--2-2--2-2--2-2--2-2--10-x16--12-x8--9-X8-
E--8------0-0--0-0--0-0--0-0--0-0--8-------10-----7----
                              ***
E--------------------------------------------------------------
B--------------------------------------------------------------
G--------------5/7-7--------------------------5/7-7------------
D--2-2--4/5-5--5/7-7--5/7-7-7-7---2-2--4/5-5--5/7-7--5/7-7-7-7-
A--2-2--4/5-5--3/5-5--5/7-7-7-7---2-2--4/5-5--3/5-5--5/7-7-7-7-
E--0-0--2/3-3---------3/5-5-5-5---0-0--2/3-3---------3/5-5-5-5-

E----------------------------------------------------------------
B----------------------------------------------------------------
G--------------5/7-7-------------------------7-7-7-7-7-----------
D--2-2--4/5-5--5/7-7--5/7-7-7-7---2-2--4/5-5"7-7-7-7-7-7-7-7-7-7-
A--2-2--4/5-5--3/5-5--5/7-7-7-7---2-2--4/5-5-5-5-5-5-5-7-7-7-7-7-
E--0-0--2/3-3---------3/5-5-5-5---0-0--2/3-3-----------5-5-5-5-5-

E----------------------10-10-5-5-     -0-0-0-0-0-0-0-0-0-
B--8-8-8-8-8-8-8-8-8-8-----------     -------------------
G--------------------------------  x3 -------------------
D--------------------------------     -------------------
A--------------------------------     -------------------
E--------------------------------     -------------------

E------------------------------------------------------
B------------------------------------------------------
G------------------------------------------------------
D--10-----2-2--2-2--2-2--2-2--2-2--10------12-----9----
A--10-x16-2-2--2-2--2-2--2-2--2-2--10-x16--12-x8--9-X8-
E--8------0-0--0-0--0-0--0-0--0-0--8-------10-----7----
                              ***
Clean On
E--------------------------------------------------------------
B--------------------------------------------------------------
G--------------5/7-7--------------------------5/7-7------------
D--2-2--4/5-5--5/7-7--5/7-7-7-7---2-2--4/5-5--5/7-7--5/7-7-7-7-
A--2-2--4/5-5--3/5-5--5/7-7-7-7---2-2--4/5-5--3/5-5--5/7-7-7-7-
E--0-0--2/3-3---------3/5-5-5-5---0-0--2/3-3---------3/5-5-5-5-
  -----------------------------PM------------------------------

E-----------------------------------
B-----------------------------------
G--------------5/7-7----------------
D--2-2--4/5-5--5/7-7--5/7-7-7-7---2-
A--2-2--4/5-5--3/5-5--5/7-7-7-7---2-
E--0-0--2/3-3---------3/5-5-5-5---0-
  ---------------PM-----------------

Distortion On
E--------------------------------------------------------------
B--------------------------------------------------------------
G--------------5/7-7--------------------------5/7-7------------
D--2-2--4/5-5--5/7-7--5/7-7-7-7---2-2--4/5-5--5/7-7--5/7-7-7-7-
A--2-2--4/5-5--3/5-5--5/7-7-7-7---2-2--4/5-5--3/5-5--5/7-7-7-7-
E--0-0--2/3-3---------3/5-5-5-5---0-0--2/3-3---------3/5-5-5-5-

E----------------------------------------------------------------
B----------------------------------------------------------------
G--------------5/7-7-------------------------7-7-7-7-7-----------
D--2-2--4/5-5--5/7-7--5/7-7-7-7---2-2--4/5-5"7-7-7-7-7-7-7-7-7-7-
A--2-2--4/5-5--3/5-5--5/7-7-7-7---2-2--4/5-5-5-5-5-5-5-7-7-7-7-7-
E--0-0--2/3-3---------3/5-5-5-5---0-0--2/3-3-----------5-5-5-5-5-

E----------------------10-10-5-5-     -0-0-0-0-
B--8-8-8-8-8-8-8-8-8-8-----------     --------- The outro and ending solo
G--------------------------------  x3 --------- are written how I do it with
D--------------------------------     --------- one guitar. Go straight into
A--------------------------------     --------- the ending after the solo ends.
E--------------------------------     --------- If you don\\'t want to play it this
                                                way play the ending of the solo like
E-----------                                    the first one, and play the power
B-----------                                    chord eight times or so. Peace.
G-----------
D-2-2-2-2-2-
A-2-2-2-2-2-
E-0-0-0-0-0-

There it is awesome song, please rate it, and enjoy.
  development and support by
dmitry ivanov