rock
 
|tablatures   |lyrics   |discussion forums   |more tabs @ XGuitar.com

Offspring tabs

Cant Get My Head Around You bass tab

Artist: The Offspring
Song: (Can't Get My) Head Around You
Album: Splinter
Bassist: Greg K.
Tuning: Standard

DON'T PAY ATTENTION TO THE RATING. IF YOU ARE A COMMON VISITOR OF MY TABS YOU'LL KNOW THAT THEY ARE, FOR THE MOST PART, ACCURATE. IN MY OPINION, THIS WAS GIVEN A LOW RATING TO LEAD PEOPLE TO THE OTHER TAB.

Intro 0:16
G|-----|
D|-----|
A|-----|
E|-10\\-|

Verse
G|-------------------------|
D|-------------------------|
A|-----------2-555---------|
E|-000-2-333-------3-555-3-|

Chorus
G|------------------------------------------|
D|------------------------------------------|
A|-3333333333333333----7\\----7\\----7\\----7\\-|
E|------------------00----00----00----00----|

G|----------------------------------|
D|----------------------------------|
A|3333333333333333-5555555-22222222-|
E|----------------------------------|

-verse
-chorus
-verse
-verse during little solo

G|------------------|
D|------------------|
A|-7-7-7-7-7-7-7-7\\-|
E|------------------|

-chorus
-BREAK
-verse

Ending
G|---------------------|
D|---------------------|
A|---------------------|
E|-00000000-0000000-0~-|
  development and support by
dmitry ivanov