rock
 
|tablatures   |lyrics   |discussion forums   |more tabs @ XGuitar.com

Offspring tabs

Burn It Up guitar tab

Album: Ignition
Year: 1992
Track: 8
Title: Burn it up

Intro/Verse
E|----------------------------------------------------------------|
B|----------------------------------------------------------------|
G|*-------------------------------------------2-2-3p2-0-2h3p2-0-2-|
D|*-2-2-3p2-0-2h3p2-0-2--2-2-3p2-0-2h3p2-0-2----------------------|
A|----------------------------------------------------------------|
E|----------------------------------------------------------------|
 |-----------------------|---------------------------|
 |-2-2-3p2-0-2h3p2-0-2--*|---------------------------|
 |-----------------------|
Pre-Chorus           
E|-------------------||---------------------------|               
B|-------------------||---------------------------|
G|*-9-9-9-8-7-7-7-8-*||*-2-2-2-2-5-5-5-5---------*|               
D|*-9-9-9-8-7-7-7-8-*||*-2-2-2-2-5-5-5-5-2-2-2-2-*|
A|--7-7-7-6-5-5-5-6--||--0-0-0-0-3-3-3-3-2-2-2-2--|               
E|-------------------||------------------0-0-0-0--|
Riff played through "So many houses, so little time" part
E|--------------------|
B|--------------------|           Key: s - Slide           
G|*-7-7s9-9-12-12s14-*|                p - pull off
D|*-7-7s9-9-12-12s14-*|                h - hammer on
A|--5-5s7-7-10-10s12--|                
E|--------------------|                 
  development and support by
dmitry ivanov