rock
 
|tablatures   |lyrics   |discussion forums   |more tabs @ XGuitar.com

Offspring tabs

Bonus Track guitar tab


Date: Sat, September 27 1997
From: Peter Ferragine (iginition@yesic.com)
Group: Offspring
Album: SMASH
Released: 1994 epitaph records
Track: about 5 min. after the last song on the SMASH album
Title: secret song (i guess)

/ \ - slide
p - pull off
h - hammer on

**there are many little riffs, no chorus or solo or verse so i just called
  them riff 1, 2 etc.. you'll need the c.d. to play along** 

riff 1                            riff 2

|--------------------------|      |--------------------------|
|--------------------------|      |-----4-5/7-5-4------------|
|--------------------------|      |-4-5-----------5-4--4-5-4-|
|-----1-2/4-2-1------------|      |--------------------------|
|-2-3-----------3-2--2-3-2-|      |--------------------------|
|--------------------------|      |--------------------------|

riff 3
        
|--------------------------|
|--------------------------|
|-----------2--------------|
|-----1-2/4---4-2-1h2p1--1-|
|-2-3----------------------|
|--------------------------|

riff 4                            riff 5

|--------------------------|      |-----------5--------------| 
|--------------------------|      |-----4-5/7---7-5-4h5--5-7-| 
|-----------2--------------|      |-4-5----------------------| 
|-----1-2/4---4-2-1h2--2-4-|      |--------------------------| 
|-2-3----------------------|      |--------------------------| 
|--------------------------|      |--------------------------| 

riff 6

|---------------------------------------------------------------| 
|-----------1--0-1/3-1-0---0-1-/3--1-0---0h1-0--0-1--0--0--0--0-| 
|---------2--------------2-------------2------------------------| 
|-2-1-2-4-------------------------------------------------------| 
|---------------------------------------------------------------| 
|---------------------------------------------------------------| 

riff 7                riff 8

|---------5-8--7-|    |-------11-12/14-12-11-----------------| 
|-5-4-5-7--------|    |-12-13----------------13-12--12-13-12-| 
|----------------|    |--------------------------------------| 
|----------------|    |--------------------------------------| 
|----------------|    |--------------------------------------| 
|----------------|    |--------------------------------------| 

riff 9

|-------------------------------------------------------|
|-------------------------------------------------------|
|-------------------------------------------------------|
|-9/10\9--7/8\7--5/6\5--4/5\4--2/3\2--1/2\1--1----------|
|-----------------------------------------------3---3-2-|
|-------------------------------------------------------|

riff 10

|----------------------------------------------------------|
|-12/13\12--10/12\10--8/9\8--7/8\7--5/6\5--4/5\4--4--------|
|----------------------------------------------------5---5-|
|----------------------------------------------------------|
|----------------------------------------------------------|
|----------------------------------------------------------| 
  development and support by
dmitry ivanov