rock
 
|tablatures   |lyrics   |discussion forums   |more tabs @ XGuitar.com

Offspring tabs

Blackball guitar tab

Album: The Offspring
Year: 1989
Track: 9
Title: Blackball

Intro/Verse:
|-----------------------------------------------------------------|
|-----------------------------------------------------------------|
|-----------------5-5-5-5-2-----------------8-9-8-----------8-9-8-|
|-2-2-2-2-5-5-5-5-5-5-5-5-2-drums-9-9-9-9-9-8-9-8-9-9-9-9-9-8-9-8-|
|-2-2-2-2-5-5-5-5-3-3-3-3-0-------9-9-9-9-9-6-7-6-9-9-9-9-9-6-7-6-|
|-0-0-0-0-3-3-3-3-----------------7-7-7-7-7-------7-7-7-7-7-------|

  Play this nifty little riff for the entire intro and verse, and
  when you get to the chorus, you can play this.

Chorus: (play this twice)
|-----------------------------------------------------------------|
|-----------------------------------------------------------------|
|-6-6-6-6-6-6-6-6-9-9-9-9-9-9-9-9---------------------------------|
|-6-6-6-6-6-6-6-6-9-9-9-9-9-9-9-9-9-9-9-9-9-9-9-9-7-7-7-7-7-7-7-7-|
|-4-4-4-4-4-4-4-4-7-7-7-7-7-7-7-7-9-9-9-9-9-9-9-9-7-7-7-7-7-7-7-7-|
|---------------------------------7-7-7-7-7-7-7-7-5-5-5-5-5-5-5-5-|
  Win the battle lose the war.....            ...were still real.

Middle part, solo:
|---------------------------------------------------------------------|
|---------------------------------------------------------------------|
|---------------------------------------------------------------------|
|-2-------------4-4-5-4---4h5p4---4-5-7-5---4-5-4---4-----------------|
|-2-ring------------------------7-----------------7---7-5-7-5-4-5-4---|
|-0-----------------------------------------------------------------7-|

|-------------------------------------------------|
|-------------------------------------------------|
|-12-12-12-12-12-12-12-12-10-10-10-10-10-10-10-10-|
|-12-12-12-12-12-12-12-12-10-10-10-10-10-10-10-10-|
|-10-10-10-10-10-10-10-10--8--8--8--8--8--8--8--8-|
|-------------------------------------------------|

|------------------------------------|
|------------------------------------|
|-9--------------/10-------------/10-|
|-9--------------/10-------------/10-|
|-7---7-7-7-7-7-7/8---7-7-7-7-7-7/8--|
|------------------------------------|
      *---P.M---*     *---P.M---*

|--------------------------------------------------------------------------|
|--------------------------------------------------------------------------|
|-12-12-12-12-------------10-10-10-10-------------9----------10--------/10-|
|-12-12-12-12-12-12-12-12-10-10-10-10-10-10-10-10-9----------10--------/10-|
|-10-10-10-10-12-12-12-12--8--8--8--8-10-10-10-10-7--7777-7-7/8-7777-7-7/8-|
|-------------10-10-10-10--------------8--8--8--8--------------------------|
                                                     *--PM--*   *--PM--*
  development and support by
dmitry ivanov