rock
 
|tablatures   |lyrics   |discussion forums   |more tabs @ XGuitar.com

Offspring tabs

Blackball bass tab

# intro # 0:07       *=play 5X   %=pause      || ||  |=single note
G----------------------------------|------2X--------|-|
D----------------------------------|----------12-11-|-|
A-------------------3-3-3-30-%%%%%%|2-2-2-2-2-------|-|
E---0-0-0-03--3-3-3----------------|----------------|-|
:
# verse # X3                                 || ||
G----------------------------------|-----2X--------|-|
D----------------------------------|---------12-11-|-|
A-------------------3-3-3-30--0-0-0|2-2-2-2-2------|-|
E---0-0-0-03--3-3-3----------------|---------------|-|
:
# chorus #     !play all notes 8-9X!
G---------------------------------------------------------------|
D-----------2---------------4-----------2-----------------------|
A---4---------------2-----------4---------------2---------------|
E-------------------------------------------------------2---2---|
:
Then play intro, verseX3 and chorus.
:
# bridge #  |1:41 #=play 100X *=play 9X "=play 6X  s=play 3-4X               >
G------------------------------2X-------------------------------------------->
D---------------------------------------------------------------------------->
A----#-------*-------*-------"-------"----------5-----003----"-------"------->
E---0-------3-------1-------0----1110----1113333-33311---1110----1110----111->
>bridge
>-------------------|-------------|----------------/-----2X----\\|----|
>-------------------|2-222-222-223|5-------3-------2-222-222-223|2---|
>-------5-----003---|-------------|----5-------3----------------|----|
>---3333-33311---111|-----4X------|--------------4X-------------|----|
:
Then play intro, verseX2 and chorus (end with E---0---|)
  development and support by
dmitry ivanov