rock
 
|tablatures   |lyrics   |discussion forums   |more tabs @ XGuitar.com

Offspring tabs

Beheaded guitar tab

Album: The Offspring
Year: 1989
Track: 6
Title: Beheaded

# intro #    X 4
E---5-5-5--3-3--6-6--5-5-5-5---|
B---3-3-3--3-3--3-3--3-3-3-3---|
G------------------------------|
D------------------------------|
A------------------------------|
E------------------------------|

# verse #   X 2   * = play chord six times
E-----------------------------------------------------------------|
B-----------------------------------------------------------------|
G---7-7--5-5--8-8--7-7-7-7--7-7--5-5--8-8--7-7-7-7---*--*--*--*---|
D---7-7--5-5--8-8--7-7-7-7--7-7--5-5--8-8--7-7-7-7--5--8--7--7----|
A---5-5--3-3--6-6--5-5-5-5--5-5--3-3--6-6--5-5-5-5--5--8--7--7----|
E---------------------------------------------------3--6--5--5----|

# chorus #
E------------------------------------------------|
B------------------------------------------------|

G---12--10---7-7-7-7-8--7-7-7-7-7---12--10---7---|
D---12---8---7-7-7-7-8--7-7-7-7-7---12---8---7---|
A---10---8---5-5-5-5-6--5-5-5-5-5---10---8---5---|
E------------------------------------------------|

Play intro, verse and chorus.

# bridge #    * = play chord six times            # bridge2 # X 10 * = play 4X
E---------------------------------------------|   E------------------|
B-----*---*---------------------------*---*---|   B----*---*--*--*---|
G---12--10---7-7-7-7-8--7-7-7-7-7--(12--10)---|   G---7--10--9--8----|
D---12---8---7-7-7-7-8--7-7-7-7-7--(12---8)---|   D---7--10--9--8----|
A---10---8---5-5-5-5-6--5-5-5-5-5--(10---8)---|   A---5---8--7--6----|
E---------------------------------------------|   E------------------|
                                                      \___mute__/
# bridge3 #   X 6   (during "Off with her head!")
E--------------|
B--------------|
G---7--10--8---|
D---7--10--8---|
A---5---8--6---|
E--------------|

Play intro, verse, chorus and bridge X2 (without the brackets). Then it is
done.
  development and support by
dmitry ivanov