rock
 
|tablatures   |lyrics   |discussion forums   |more tabs @ XGuitar.com

Offspring tabs

Beheaded bass tab

The Offspring
"Beheaded"
Tabbed By Adam

Intro
G---------------------|
D---------------------|
A--5(hold)/17(hold)---|
E---------------------|
(you hold the 5, and then slide up to
the 17 and hold it there)

Verse (whole thing x2)
G--------------------|
D--------------------|
A--5-5--3-3--6-6--5--| (x2)
E--------------------|

G--------------------------------------|
D--------------------------------------|
A--------------------------------------|
E--3-3-3-3--6-6-6-6--5-5-5-5-5-5-5-5---|

Chorus
G-----------------------------------|
D-----------------------------------|
A--10-10-10--8-8-8--5-555-6--5-5555-|
E-----------------------------------|

G---------------------|
D---------------------|
A--10-10-10--8-8-8--5-|
E---------------------|

Intro

Verse

Chorus (x2)

Break
(Pause for a few seconds, then...)
G---------|
D---------|
A--5-5-5--|
E---------|

("All my collection...")
G-----------------------|
D-----------------------|
A--5555-8888-7777-6666--| (x8)
E-----------------------|

("Off with her head...")
G----------------|
D----------------|
A--5-------8--6--| (x6)
E----------------|

Intro

Verse

Final Chorus
G-----------------------------------|
D-----------------------------------|
A--10-10-10--8-8-8--5-555-6--5-5555-|
E-----------------------------------|

G---------------------|
D---------------------|
A--10-10-10--8-8-8--5-|
E---------------------|

G-----------------------------------|
D-----------------------------------|
A--10-10-10--8-8-8--5-555-6--5-5555-| (x2)
E-----------------------------------|

And that's all...Should be correct!
Questions, comments, requests...E-Mail me at
mystery7punk@hotmail.com
  development and support by
dmitry ivanov