rock
 
|tablatures   |lyrics   |discussion forums   |more tabs @ XGuitar.com

Offspring tabs

Bad Habit bass tab

Bass tab for Bad Habit by The Offspring


Intro
		    x6
G|--------2----------|--------0-----------|
D|-------------------|----------------2---|
A|----0--------------|--------------------|
E|-3-----------3h5-5-|-0--3--------0------|


Verse
			 x2
G|------------------------|
D|------------------------|
A|-0--3-5--4-3-2-0--3--0--|
E|------------------------|


Chorus
			
G|----------------------------|
D|-----2-3--------------------|
A|-0-0------3--5--5-5-5-5/7-7-|	Repeated
E|----------------------------|


Bridge/solo

G|--------------------------|
D|-7-7--6-5-5-/3-2-0--------|
A|-------------------3-2-0--|	Repeated
E|--------------------------|
  development and support by
dmitry ivanov