rock
 
|tablatures   |lyrics   |discussion forums   |more tabs @ XGuitar.com

Offspring tabs

Amazed guitar tab

Album: Ixnay on the Hombre
Year: 1997
Track: 13
Title:  Amazed

# INTRO #  X4  *=play 7X   # INTRO2 #     X2
E-------------------|      E-------------------------------------------------|
B------------*---*--|      B-------------------------------------------------|
G----*---*--7---5---|      G---9--11-12---9--11-12---9--11-12-14-12-11-9-7---|
D---7---5---7---5---|      D---7---9-10---7---9-10---7---9-10-12-10--9-7-5---|
A---7---5---5---3---|      A-------------------------------------------------|
E---5---3-----------|      E-------------------------------------------------|

Play INTRO2 or:

# PRE-CHORUS #     (INTRO2 at the background!!!)
E-------------------------------------------------|
B-------------------------------------------------|
G---9---9-9----9---9-9----9--11-12-14-12-11-9-7---|
D---7---7-7----7---7-7----7---9-10-12-10--9-7-5---|
A-------------------------------------------------|
E-------------------------------------------------|

# CHORUS #     *=play 7-8X
E-------------------------------------------------------------------->
B-------------*-------*-------------*---------------------*-------*-->
G---2-2-2-5--9----*--7----2-2-2-5--9----*---*---2-2-2-5--9----*--7--->
D---2-2-2-5--9---5---7----2-2-2-5--9---5---2----2-2-2-5--9---5---7--->
A---0-0-0-3--7---5---5----0-0-0-3--7---5---2----0-0-0-3--7---5---5--->
E----------------3---------------------3---0-----------------3------->

E------------------------|
B-------------*-------*--|
G---2-2-2-5--9----*--7---|
D---2-2-2-5--9---5---7---|
A---0-0-0-3--7---5---5---|
E----------------3-------|

->Play INTRO X2 or INTRO2, PRE-CHORUS or INTRO2, CHORUS, INTRO X2 or INTRO2.

# bridge #   *=play 7X
E-----------------------------------|                                  
B------------*----------------------|                                  
G----*---*--7---9-9-9-9--12-12-12---|                                  
D---7---5---7---9-9-9-9--12-12-12---|                                  
A---7---5---5---7-7-7-7--10-10-10---|                                  
E---5---3---------------------------|                                  
    \___palm-muted__/

->Play CHORUS and INTRO X2 (END with first chord) or INTRO2.
  development and support by
dmitry ivanov