rock
 
|tablatures   |lyrics   |discussion forums   |more tabs @ XGuitar.com

Offspring tabs

Amazed bass tab

The Offspring - Amazed
Tabbed By: Spencer Burgess (monkah@yahoo.com)

Verse
G|-----------------------------------------|
D|-----------------------------------------|
A|---------------------5-5-5-5-3-3-3-3-3-3-|
E|-5-5-5-5-3-3-3-3-3-3---------------------|

G|-------------------------------------------|
D|-------------------------------------------|
A|---------------------5-5-5-5-3-3-3-3-------|
E|-5-5-5-5-3-3-3-3-3-3-----------------0-3-4-|

Chorus
G|---------------------------------------------------------------------------------|
D|---------------------------------------------------------------------------------|
A|-----3-3-7-7-7-7-7-7---------5-5-5-5-5-5-----3-3-7-7-7-7-7-7---------------------|
E|-5-5-----------------3-3-3-3-------------5-5-----------------3-3-3-3-0-0-0-0-3-4-|

Interlude
G|-----------------------------------------|
D|-----------------------------------------|
A|---------------------5-5-5-5-3-3-3-3-3-3-|
E|-5-5-5-5-3-3-3-3-3-3---------------------|

G|---------------------------------------------------------------|
D|---------------------------------------------------------------|
A|---------------------------------5-5-5-5-5-5-5-5-7-7-7-7-10-10-|
E|-5-5-5-5-5-5-5-5-3-3-3-3-3-3-3-3-------------------------------|

ORDER
Verse (X5)
Chorus (X2)
Verse (X4)
Chorus (X2)
Verse (X1)
Interlude
Chorus (X2)
Verse (X1)
  development and support by
dmitry ivanov