rock
 
|tablatures   |lyrics   |discussion forums   |more tabs @ XGuitar.com

Offspring tabs

All I Want guitar tab

Album: Ixnay on the Hombre
Year: 1997
Track: 10
Title: All I want

# INTRO #
E------------------------------------------------------------------|
B------------------------------------------------------------------|
G--11-11-9-11-11-11--7-7-7--9-9-9---11-11-9-11-11-11--7-7-7--9-9---|
D--11-11-9-11-11-11--7-7-7--9-9-9---11-11-9-11-11-11--7-7-7--7-9---|
A---9--9-7--9--9--9--5-5-5--7-7-7----9--9-7--9--9--9--5-5-5----7---|
E------------------------------------------------------------------|

# VERSE #     X 2
E--------------------------------------------------------------------|
B--------------------------------------------------------------------|
G-------------------------------------------------------7-7-7--9-9---|
D---4-4-4-4--2--4-4-4-4------------4-4-4-4--2--4-4-4-4--7-7-7--7-9---|
A---4-4-4-4--2--4-4-4-4----bass----4-4-4-4--2--4-4-4-4--5-5-5----7---|
E---2-2-2-2--0--2-2-2-2---played---2-2-2-2--0--2-2-2-2---------------|
   \____palm-mute______/          \_____palm-mute_____/

# CHORUS #  X4  *=play 6X
E-------------------|
B----*---*-------*--|
G--11---7----*--9---|          
D--11---7---7---9---|
A---9---5---7---7---|
E-----------5-------|

->Then play INTRO, VERSE and CHORUS

# bridge #      *=play several times    m=mute
E------------------------------------------------------------------|
B-----------------------------------------*-------*----------------|
G---7-7-7-9---11-11-11-9----7-7-7-9-9--7-7-----6-6---4-4-----------|
D---7-7-7-9---11-11-11-9----7-7-7-9-9--7-7-----6-6---4-4-7-7-6-6---|
A---5-5-5-7----9--9--9-7----5-5-5-7-7--5-5-----4-4---2-2-7-7-6-6---|
E----------------------------------------m-------m-------5-5-4-4---|

->Play CHORUS X2

# outro #        *=play 6X
E-----------------------------------|
B-(--*---*)-------*-----------------|
G-(11---7-)----*-9--9-9--9-9-9-11---|
D-(11---7-)---7--9--9-9--9-9-9-11---|
A-(-9---5-)---7--7--7-7--7-7-7--9---|
E-------------5---------------------|
  development and support by
dmitry ivanov