rock
 
|tablatures   |lyrics   |discussion forums   |more tabs @ XGuitar.com

Offspring tabs

All I Want bass tab

song: "ALL I WANT"
band: Offspring
album: "Ixnay On The Hombre"
tabbed by: Jay


Opening & Verse:
(the guitar changes but the bass continues to repeat)
G:--------------------------------------------------------|
D:------------------------------------7-------------------|
A:--999799--7-55557777-999799--7-5555---7-----------------|
E:--------------------------------------------------------|

Chorus:
G:--------------------------------------------------------|
D:--------------------------------------------------------|
A:--99-9999755-55555----------77-77777--------------------|
E:-------------------55-55555-----------------------------|

Middle part:
G:--------------------------------------------------------|
D:--------------------------------------------------------|
A:---5-55-57-----99-77-----55-57-7-5-5(x14)-4-4(x14)----------|
E:--------------------------------------------------------|


Ending:
G:--------------------------------------------------------|
D:--------------------------------------------------------|
A:--99-9999755-55555-99-9999755-55555----------77-77-7-9--|
E:------------------------------------55-55555------------|
  development and support by
dmitry ivanov