rock
 
|tablatures   |lyrics   |discussion forums   |more tabs @ XGuitar.com

Offspring tabs

All Along guitar tab

Website: The Offspring.com (http://www.theoffspring.com)
Tabbed By: per (per@coolast.com)
Tabbed For: Guitar
Song Title: All Along
Album: Conspiracy Of One
Tab:
----------------------------------------------------------
song structure:
intro     2x
riff1     2x(second time without pm on last chord)
chorus    2x
intro     1x
riff1     2x(second time without pm on last chord)
chorus    2x
bridge    1x
interlude 1x
chorus    2x
utro      1x


Intro:
e|------------------------------------------------------
B|------------------------------------------------------
G|-9-9-9-9-9-9/7-7-7-5-5--5-5-5-5-5-5/7-7-7-9-9---------
D|-9-9-9-9-9-9/7-7-7-5-5--5-5-5-5-5-5/7-7-7-9-9---------
A|-7-7-7-7-7-7/5-5-5-3-3--3-3-3-3-3-3/5-5-5-7-7---------
E|------------------------------------------------------


riff1:(all palm muted triplets)
e|------------------------------------------------------
B|------------------------------------------------------
G|-9-9-7-7-5-5--7-9-------------------------------------
D|-9-9-7-7-5-5--7-9-------------------------------------
A|-7-7-5-5-3-3--5-7-------------------------------------
E|------------------------------------------------------

chorus:
e|------------------------------------------------------
B|------------------------------------------------------
G|-9-9-9-9-9-9/7-7-7-7-7-7-7/5-5-5-5-5-5/7-7-7-7/9-9-9--
D|-9-9-9-9-9-9/7-7-7-7-7-7-7/5-5-5-5-5-5/7-7-7-7/9-9-9--
A|-7-7-7-7-7-7/5-5-5-5-5-5-5/3-3-3-3-3-3/5-5-5-5/7-7-7--
E|------------------------------------------------------

bridge:
e|-----------------9/7~---------------------------------
B|----------------9b/7~---------------------------------
G|-9:-----9-7:----9b/7~---------------------------------
D|-9:-----9-7:------------------------------------------
A|-7:-----7-5:------------------------------------------

interlude:
e|------------------------------------------------------
B|------------------------------------------------------
G|-9-9-7-7-5-5--7-7-9-9---9-9-5-5--5/7--5-5-------------
D|-9-9-7-7-5-5--7-7-9-9---9-9-5-5--5/7--5-5-------------
A|-7-7-5-5-3-3--5-5-7-7---7-7-5-5--3/5--3-3-------------
E|------------------------------------------------------

utro:
e|------------------------------------------------------
B|------------------------------------------------------
G|-5-5-7-7-9-9-5----------------------------------------
D|-5-5-7-7-9-9-5----------------------------------------
A|-3-3-5-5-7-7-3----------------------------------------
E|------------------------------------------------------
----------------------------------------------------------
  development and support by
dmitry ivanov