rock
 
|tablatures   |lyrics   |discussion forums   |more tabs @ XGuitar.com

Offspring tabs

All Along bass tab

Artist: The Offspring
Song: All Alone
Album: Conspiracy Of One
Bassist: Grek K.
Tuning: Standard
Tabbed by: Spidey255

Intro
G|---------------------------------------------|
D|---------------------------------------------|
A|-77-77777-55-5---------------3-3/10-10-10-10-|
E|---------------33-3-55-55555-----------------|

Verse
G|--------------------------------------|
D|--------------------------------------|
A|-77777777-55555555----------3333------|
E|-------------------55555555------3333-|

G|--------------------------------------------|
D|--------------------------------------------|
A|-77777777-55555555----------3-3/10-10-10-10-|
E|-------------------55555555-----------------|

Chorus
G|---------------------------------------------|
D|---------------------------------------------|
A|-77777777-55555555-00000000-3333/10-10-10-10-|
E|---------------------------------------------|

-intro
-verse
-chorus

Bridge
G|------------------------------------------------|
D|------------------------------------------------|
A|-777-5-7-----55-5---------------3-3/10-10-10-10-|
E|---------0-2------33-3-55-55555-----------------|

-chorus

Ending
G|---------------|
D|---------------|
A|-0~-33/10-10-7-|
E|---------------|
  development and support by
dmitry ivanov