rock
 
|tablatures   |lyrics   |discussion forums   |more tabs @ XGuitar.com

Offspring tabs

A Thousand Days guitar tab

Album: The Offspring
Year: 1989
Track: 8
Title: A thousand days

# intro #    X4                        # verse #   X8                  
E---------------------------|          E--------------------------|    
B---------------------------|          B--------------------------|    
G---------------------------|          G---2-4-4--6-6--5-5--4-4---|    
D-----------------4--3--2---|          D---2-4-4--4-4--3-3--2-2---|    
A---0-0-0-0-2-2-2-----------|          A---0-2-2------------------|    
E---------------------------|          E--------------------------|    

# verse2 #  X2  (Don`t ask me for a reason...)
E-------------------------------|
B-------------------------------|
G---7-9-9--11-11--10-10---9-9---|         Then play verse X2.
D---7-9-9---9--9---8--8---7-7---|
A---5-7-7-----------------------|
E-------------------------------|

# chorus #
E-------------------------------------------------|
B-------------------------------------------------|
G-------5-5------7-7--4---------5-5------7-7------|
D---5-5-5-5--5-5-7-7--4-----5-5-5-5--5-5-7-7--4---|
A---5-5-3-3--5-5-5-5--2-----5-5-3-3--5-5-5-5--4---|
E---3-3------3-3------------3-3------3-3------2---|

# bridge #
E------------------------------|
B------------------------------|   Then play verse X4, verse2 X2, verse X2
G---2--4-4--4-4--4-4-4-4-4-4---|   and chorus.                         
D---2--4-4--4-4--4-4-4-4-4-4---|
A---0--2-2--2-2--2-2-2-2-2-2---|
E------------------------------|
    \____palm-muted________/

# bridge2 #      X12
E------------------------------|
B------------------------------|
G------------------------------|
D---2--4-4--4-4--4-4-4-4-4-4---|
A---2--4-4--4-4--4-4-4-4-4-4---|
E---0--2-2--2-2--2-2-2-2-2-2---|
    \______palm-muted______/

# bridge2-end #     X2
E----------------------------------------------------------|
B----------------------------------------------------------|  Play verse X4,
G---------------11----11-----------------------------------|> verse2 X2 and
D---2--4-4--4-4-11----11--------2--4-4--4-4--4-4-4-4-4-4---|  verse X2.
A---2--4-4--4-4--9-----9--------2--4-4--4-4--4-4-4-4-4-4---|
E---0--2-2--2-2-----------------0--2-2--2-2--2-2-2-2-2-2---|

# outro-chorus #
E-------------------------------------------------|
B-------------------------------------------------|
G-------5-5------7-7--4---------5-5------7-7--4---|
D---5-5-5-5--5-5-7-7--4-----5-5-5-5--5-5-7-7--4---|
A---5-5-3-3--5-5-5-5--2-----5-5-3-3--5-5-5-5--2---|
E---3-3------3-3------------3-3------3-3----------|
  development and support by
dmitry ivanov