rock
 
|tablatures   |lyrics   |discussion forums   |more tabs @ XGuitar.com

Offspring tabs

A Thousand Days bass tab

# intro #                # verse #       *=play 7X
G-----------------|      G-|------8X------|--*-----------|------2X------|-|
D-----------------|      D-|--*-----------|-2-------5-00-|--*-----------|-|
A---0-2-----/14---|      A-|-2-------5-00-|--------------|-2-------5-00-|-|
E-----------------|      E-|--------------|-----2X-------|--------------|-|
:
# chorus #
G-------------------------------------------------|
D-------------------------------------------------|
A-------3-3------5-5-2-----------3-3------5-5-----|
E---3-3------3-3-------------3-3------3-3-----2---|
:
# bridge # X4
G---------------------|
D---------------------|  > Then play verse (|first part|X4) and chorus.
A---0-02-22-22-22-2---|
E---------------------|
:
# bridge2 # X12          # bridge2-end # X2   (And I just can't let it go...)
G---------------------|  G-------------------------------------|
D---------------------|  D--------------4--4-------------------|
A---------------------|  A-------------------------------------|
E---0-02-22-22-22-2---|  E---0-02-22-22------0-02-22-22-22-2---|
:
Then play verse (|first part|X4).
:
# chorus3 #
G-------------------------------------------------|
D-------------------------------------------------|
A-------3-3------5-5-2-----------3-3------5-5-2---|
E---3-3------3-3-------------3-3------3-3---------|
  development and support by
dmitry ivanov