rock
 
|tablatures   |lyrics   |discussion forums   |more tabs @ XGuitar.com

Nirvana tabs

Turnaround guitar tab

NIRVANA - INCESTICIDE

Tabbed by Kieren Hudson.
if anyone has comments, or suggestions mail me at kieren@mail.org

TABULATURE DEFINITION
)     =  bend
/     =  slide up
\     =  slide down
~~    =  vibrato
x/x   =  pickscrape
*     =  uncontrolled feedback



Turnaround
 intro/verse
e----------------------------------------------------------------------------
b----------------------------)-----------------------------------------------
g---------------------------7--7--7--7--7--(7)-------------------------------
d----------------------------------------------------------------------------
a----------------------------------------------------------------------------
e--0--0--0--0--0--0--0--0----------------------------------------------------
 
play that 5 times, then
 chorus
e---------------------------------------------------------------------------- 
b----------------------------------------------------------------------------
g---7--7-----5--5--5---2---2--2--2---2--2--2--2------------------------------
d---7--7-----5--5--5---2---2--2--2---2--2--2--2------------------------------
a---5--5--0--3--3--3---0---0--0--0---0--0--0--0------------------------------
e----------------------------------------------------------------------------

e---------------------------------------------------------------------------- 
b----------------------------------------------------------------------------
g---7--7---5--5--5-----------------------------------2---2--2--2--2--2--2--2-
d---7--7---5--5--5--5--5--5--5--5-----3--3--5--5--5--2---2--2--2--2--2--2--2-
a---5--5---3--3--3--5--5--5--5--5-----3--3--5--5--5--0---0--0--0--0--0--0--0-
e-------------------3--3--3--3--3--0--1--1--3--3--3--------------------------

e----------------------------------------------------------------------------
b----------------------------------------------------------------------------
g--------------------7--7--7--7--7--7--7--7----------------------------------
d--3--3--3--5--5--5--7--7--7--7--7--7--7--7----------------------------------
a--3--3--3--5--5--5--5--5--5--5--5--5--5--5----------------------------------
e--1--1--1--3--3--3----------------------------------------------------------

e----------------------------------------------------------------------------
b----------------------------------------------------------------------------
g-----------------------5--5--5---5--5--5------------------------------------
d--3--3--3--3--5--5--5--5--5--5---5--5--5------------------------------------
a--3--3--3--3--5--5--5--3--3--3---3--3--3------------------------------------
e--1--1--1--1--3--3--3-------------------------------------------------------

 then verse, then
e----------------------------------------------------------------------------
b----------------------------------------------------------------------------
g--7--7--5--5-----2--2--2--2--2--2--2----------------------------------------
d--7--7--5--5-----2--2--2--2--2--2--2----------------------------------------
a--5--5--3--3-----0--0--0--0--0--0--0----------------------------------------
e----------------------------------------------------------------------------

e----------------------------------------------------------------------------
b----------------------------------------------------------------------------
g--7--7--5--5----------------------------------------------------------------
d--7--7--5--5-----5--5--5--5--5--5--5----------------------------------------
a--5--5--3--3-----5--5--5--5--5--5--5----------------------------------------
e-----------------3--3--3--3--3--3--3----------------------------------------

e----------------------------------------------------------------------------
b----------------------------------------------------------------------------
g-----------------2--2--2--2--2--2--2----------------------------------------
d--3--3--5--5-----2--2--2--2--2--2--2----------------------------------------
a--3--3--5--5-----0--0--0--0--0--0--0----------------------------------------
e--1--1--3--3----------------------------------------------------------------

e----------------------------------------------------------------------------
b----------------------------------------------------------------------------
g-----------------7--7--7--7--7--7--7----------------------------------------
d--3--3--5--5-----7--7--7--7--7--7--7----------------------------------------
a--3--3--5--5-----5--5--5--5--5--5--5----------------------------------------
e--1--1--3--3----------------------------------------------------------------

e----------------------------------------------------------------------------
b----------------------------------------------------------------------------
g-----------------5--5--5--5--5--5--5----------------------------------------
d--3--3--5--5-----5--5--5--5--5--5--5----------------------------------------
a--3--3--5--5-----3--3--3--3--3--3--3----------------------------------------
e--1--1--3--3----------------------------------------------------------------
  development and support by
dmitry ivanov