rock
 
|tablatures   |lyrics   |discussion forums   |more tabs @ XGuitar.com

Nirvana tabs

Territorial Pissings bass tab

Subject: Territorial
Pissings BTAB by Nirvana
From: Rooptroop@AOL.com

well here is a cool as Nirvana song and it's
really simple

G-------------------------------------------------------
D-------------------------------------------------------
A----------------8-8-8-8-8-8-8-8-5-6-6-5-6-6-5-6-6-5-6-6
E-5-5-5-5-5-5-5-5---------------------------------------

The Chorus is almost the same "Gotta find
a way a better way..."

G-------------------------------------------------------
D-------------------------------------------------------
A----------------8-8-8-8-8-8-8-8-5-5-5-5-5-5-5-5-5-5-5-5
E-5-5-5-5-5-5-5-5---------------------------------------

and when the guitar stops and it's just Kurt
singing and the drums and the
bass
it's the same thing as the chorus.

That's it I told you it was simple

Tabbed by Jon Roop
(and his friend Pinky the wonder turd join
Pinky on his magical adventures
through the
toilet of time and space)


  development and support by
dmitry ivanov