rock
 
|tablatures   |lyrics   |discussion forums   |more tabs @ XGuitar.com

Nirvana tabs

Swap Meet bass tab

Song: Swap Meet
Artist: Nirvana
Album: Bleach
Tabbed By: Cheran Shunmugavel
 
This is a really simple song, but the bass is hard to hear over the
guitar. The rhythm is pretty much straight eigth notes, except for
the chorus.
 
Intro
G-|-----------|---------|---------|-----------|
D-|*----------|---------|---------|----------*|
A-|*----------|---------|---------|----------*|
E-|---0-3-2-r-|-0-3-2-0-|-0-3-2-r-|-0-3-2-1---|
 
Weird Verse
G-|----------|----------|
D-|----------|----------|
A-|----------|----------|
E-|--0-3-2-r-|-0-3-2p1--|
 
Verse
G-|-----------|-----------|
D-|*----------|----------*|
A-|*----------|----------*|
E-|---0-3-r-2-|-0-3-2p1---|
 
Chorus
G-|---------|---------|-------|-----------|
D-|*--------|---------|-------|-----------|
A-|*--------|---------|-------|-----------|
E-|---0--0--|-0-0-0-3-|--3-3--|-3-3-/12\--|
 
G-|---------|---------|---------|-----------|
D-|---------|---------|---------|----------*|
A-|---------|---------|---------|----------*|
E-|-0-3-2-1-|-0-1-2-3-|-0-3-2-1-|-0-1-2-3---|
 
Bridge
 
G-|--------|---------|-------|--------|
D-|--------|---------|-------|--------|
A-|--------|---------|-------|--------|
E-|--0--0--|-0-0-0-3-|--3-3--|-3-3-3--|
 
G-|---------|---------|-------------|
D-|---------|---------|-------------|
A-|---------|---------|-------------|
E-|-3-3-r-2-|-2-r-1-1-|-0-0-r-/12\--|
 
Here's the order to play these parts.
 
Intro  X 2
Weird Verse X 1
Verse   X 15
Chorus  X 2
Bridge  X 1
Verse  X 20
Chorus  X 2
Bridge  X 1
Verse  X 28
Chorus  X 2
Bridge  X 1
 
End the song with an open E.
  development and support by
dmitry ivanov