rock
 
|tablatures   |lyrics   |discussion forums   |more tabs @ XGuitar.com

Nirvana tabs

Stay Away guitar tab


  Stay Away
  By Kurt Cobain
  Tune normally

  Intro 
  w/dist
  Rhy. fig 1
 |-----------------------------------------------------------------|
 |---3----3-------------------------------------------------------o|
 |---2----2----X-----4----4-----------------------5---5---5-----6--| X4
 |---0----0----X-----4----4----------3----3---0---5---5---5-----6--|
 |---0----0----X-----2----2----0-----3----3---0---3---3---3-----4-o|
 |-----------------------------0-----1----1------------------------|


 In the verses the guitar only plays this.-
 
 |--------------------------------------------------------------------------|
 |--------------------------------------------------------------------------|
 |-----4/5----5----5---5brf------(5)----------------------------------------|
 |--------------------------------------------------------------------------|
 |--------------------------------------------------------------------------|
 |--------------------------------------------------------------------------|


 Monkey say, monkey do.   I don't know why!
 I'd rather be dead than cool.     I don't know why!
 Ev'ry line ends in rhyme.    I don't know why!
 Less is more, love is blind.   I don't know why!

 Chorus
 w/rhy. fig 1
 Stay, stay away...   (etc)

 Give an inch take a smile.    I don't know why!
 Fashion shifts, fashion style.   I don't know why!
 Throw it out and keep it in.     I don't know why!
 Have to have poison skin.      I don't know why!

 Chorus
 w/rhy. fig 1
 Stay, stay away...   (etc)

  Bridge.-
                                                        I don't know why!
 |--------------------------------------------------------------------------|
 |---3---------------------------------------------------------------------o|
 |---2-------------------------------------------------------3------3brę-(3)|
 |---0-------------------4------------4--------------4----------------------|
 |-----------------------4--------------------4------4---------------------o|
 |-----------------------2--------------------2-----------------------------|
                                                                        X2

  Repeat chorus, then bass and drums play, then
       Trem-----------------------™          Ah!
 |--------------------------------------------------------------------------|
 |--------------------------------------------------------------------------| 
 |---------0---------0--------0---------------------------------------------|
 |---------0---------0--------0---------------------------------------------|
 |---------0---------0--------0---------------------------------------------|
 |--------------------------------------------------------------------------|
          Fade in

  Repeat chorus several times, and then it ends like this.-

 |--------------------------------------------------------------------------|
 |--3-----------------------------------------------------------------------|
 |--2-----------------------------------------------------------------------|
 |--0-----------------------------------------------------------------------|
 |--0-----------------------------------------------------------------------|
 |-----------------0--------------------------------------------------------|
                    here you dive with bar and play the chord
                    sometimes while diving until you reach the
                    pickups. 

  development and support by
dmitry ivanov