rock
 
|tablatures   |lyrics   |discussion forums   |more tabs @ XGuitar.com

Nirvana tabs

Stay Away bass tab

Song: Stay Away
Artist: Nirvana
Album: Nevermind

Tab by Christian Brosche

Normal tuning (EADG)

Intro, Verse, Chorus

G|-------------------------------------------|
D|*----------------3-3----------------------*|
A|*--5-5--7-2-2--2------0-3-0-3-4-55--------*|
E|-------------------------------------------|

Bridge

G|--------------------------------------------------|
D|-------------3-----3-5-3/6------------------------|
A|--5--5-5-3-5---5-3--------------------------------|
E|----------------------------2-2-2-2-2-2-2---------|

G|--------------------------------------------------|
D|-------------3---3-5-5-3--------------------------|
A|--5--5-5-3-5---5----------------------------------|
E|--------------------------2-2-2-2-2-2-2-----------|


E-mail any corrections, comments, thanks, etc. to
parranda@hotmail.com
___________________________________________________________________________
  development and support by
dmitry ivanov