rock
 
|tablatures   |lyrics   |discussion forums   |more tabs @ XGuitar.com

Nirvana tabs

Stain bass tab


"Stain" - Nirvana

Drop D Tuning

submitted by Christopher aka Achilles

 intro
verse riff
G|---------------|---------|
D|---------------|---------|
A|---------------|---------|
D|2-201-12-2-201-|12-2-201-|

 chorus
G|---------------------------------------------------------------------------------------------
D|---------------------------------------------------------------------------------------------
A|1-00-005-(5)31010---1-00-00--55555555-1-00-005-(5)31010---1-00-00--55555---------------------
D|-----------------32--------0---------------------------32--------0-------1-22-2-201-12-2-201-


"Well he.."
 --------------------------|
 --------------------------|
 ------------------55555---|
 12-2-201-12-2-201-------1-|

 solo (x7)
G|-----------------------------------|
D|-----------------------------------|
A|-----------------------------------|
D|22-2-201-12-2-201-12-2-201-12-2201-|


 outro chorus
G|----------------------------------------------------------------------------|
D|----------------------------------------------------------------------------|
A|55555555-1-00-005-31010---1-00-00--55555555-1-00-005-31010---1-00-00--55555-|
D|-----------------------32--------0------------------------32--------0-------|
  development and support by
dmitry ivanov