rock
 
|tablatures   |lyrics   |discussion forums   |more tabs @ XGuitar.com

Nirvana tabs

Son Of A Gun bass tab

Son of a Gun
by Nirvana
from the album Incesticide

   Verse

|-------------------------------------
|--------0--------------0-------------
|---0-------------0-------------------
|------0-----0-------0------0---------
   Up, up, up and down...



    Chorus

|-------------------------------------
|-------------------------------------
|---------------3-3-3-3-3-3-3-5-5-5-5-5-5-5-3-3-3-3-3-3-3-
|-3-3-3-3-3-3-3-------------------------------------------

  Sometimes in the bedroom...

|------------------------------------------------------------------
|------------------------------------------------------------------
|------------------5-5-5-5-5-5-5-5-----------------7-7-7-7-7-7-7-7- 
|-3-3-3-3-3-3-3-3------------------5-5-5-5-5-5-5-5-----------------



the first part is definitely wrong...it just sounds ok when playing it.
The rest should be ok...
  development and support by
dmitry ivanov