rock
 
|tablatures   |lyrics   |discussion forums   |more tabs @ XGuitar.com

Nirvana tabs

Smells Like Teen Spirit bass tab

Artist: Nirvana
Title: Smells Like Teen Spirit
Album: Nevermind

Tuning: EADG

Transcribed by Ben Lablache (guerillaradio@raveworld.net)
________________________________________________________

Verse Riff

E:-1-1-1-1---------4-4-4-4-------- Repeat
A:---------1-1-1-1---------4-4-4-4
D:--------------------------------
G:--------------------------------
 Fm Bb
Ab Db


Chorus and Intro Riff (extra notes are played in between, but they're
not really written, just
listen to the way he plays)

E:-1--1-----4--4---- Repeat
A:------1-1------4-4
D:------------------
G:------------------

Middle 8 Riff

E:-1-1-1-1------4-4-4-4------- Repeat
A:----------1-1----------4-4-2
D:----------------------------
G:----------------------------

It's very simple once you figure it out.
  development and support by
dmitry ivanov