rock
 
|tablatures   |lyrics   |discussion forums   |more tabs @ XGuitar.com

Nirvana tabs

Sifting guitar tab

NIRVANA - Bleach
Tabbed by Kieren Hudson.
if anyone has comments, or suggestions mail me at kieren@mail.org

TABULATURE DEFINITION
)     =  bend
/     =  slide up
\     =  slide down
~~    =  vibrato
PM    =  palm mute
)r    =  bend and release 
^     =  hammeron/pulloff
x/x   =  pickscrape
*     =  uncontrolled feedback
NH    =  natural harmonic



Sifting
 intro
e----------------------------------------------------------------------------
b----------------------------------------------------------------------------
g----------------------------------------------------------------------------                    
d----------------------------------------------------------------------------
a----------------------------------------------------------------------------
e--0--0--0--0----0--0--0--0----0--0--0--0----0--0--0--0----------------------
   PM--------    PM--------    PM--------    PM--------
      
 
e----------------------------------------------------------------------------
b----------------------------------------------------------------------------
g----------------------------------------------------------------------------   
d-------------3--------------2--1--0-----------------3-----------------------
a-------------3--------------2--1--0-----------------3-----------------------
e--0--0--0--------0--0--0------------------0--0--0---------0--0--0--0--------
   PM-----        PM-----                  PM-----         PM-------- 

e----------------------------------------------------------------------------
b----------------------------------------------------------------------------
g----------------------------------------------------------------------------   
d-------------3--------------2--1--0-----------------3-----------------------
a-------------3--------------2--1--0-----------------3-----------------------
e--0--0--0--------0--0--0------------------0--0--0---------0--0--0--0--------
   PM-----        PM-----                  PM-----         PM--------    

 verse
e----------------------------------------------------------------------------
b----------------------------------------------------------------------------
g----------------------------------------------------------------------------                                              
d-----------3------------2--1--0-------------3------------2--1--0------------
a-----------3------------2--1--0-------------3------------2--1--0------------
e--0--0--0-----0--0--0--------------0--0--0-----0--0--0----------------------
   PM-----     PM-----              PM-----     PM-----

 then
e----------------------------------------------------------------------------
b----------------------------------------------------------------------------
g----------------------------------------------------------------------------                                   
d-------------5~~~~~\-------------5~~~~~\------------------------------------
a-------------5~~~~~\-------------5~~~~~\------------------------------------
e--0--0--0-------------0--0--0-----------------------------------------------
   PM-----             PM-----

play that 4 times, then
 chorus
e----------------------------------------------------------------------------
b----------------------------------------------------------------------------
g--5--5-5--5-----------------------5--5-5--5---------------------------------
d--5--5-5--5-0---)--)-----------0--5--5-5--5-0---)--)-----------0------------
a--3--3-3--3-0--7--7--7\5--5--5-0--3--3-3--3-0--7--7--7\5--5--5-0------------
e---------------5--5--5\3--3--3-----------------5--5--5\3--3--3--------------

 play that 3 times, then
e----------------------------------------------------------------------------
b----------------------------------------------------------------------------
g--5--5-5--5-----------------------5--5-5--5----4----------------------------
d--5--5-5--5-0---)--)-----------0--5--5-5--5-0--4----------------------------
a--3--3-3--3-0--7--7--7\5--5--5-0--3--3-3--3-0--2----------------------------
e---------------5--5--5\3--3--3----------------------------------------------


 solo
e----------------------------------------------------------------------------
b--------------)~~~----------------------------------------------------------
g-------------11-------------------------------------------------------------        
d-----------------------------------)-12-(----------------------)~~~---------       
a---------------------------------12------12------------------12-------------
e--0--0--0-------------0--0--0-------------------0--0--0---------------------              

e----------------------------------------------------------------------------
b----------------------------------------------------------------------------
g----------------------------------------------------------------------------
d--------------)-12-(----------------)~~~--------------)-12-(----------------
a------------12------12------------12----------------12------12--------------
e--0--0--0---------------0--0--0-----------0--0--0---------------------------

   
e----------------------------------------------------------------------------
b----------------------------------------------------------------------------
g----------------------------------------------------------------------------
d--------------)-12-(-------------------)-12-(-------------------------------
a------------12------12---------------12------12-----------------------------
e--0--0--0------------------0--0--0------------------0--0--0-----------------

e----------------------------------------------------------------------------
b----)-----------------------------------------------------------------------
g--11---11-------------------------------------------------------------------
d---------------12----------)--------12----)------------12---------)--12-----
a-----------12-----(12)---12---(12)------12---(12)---12----(12)--12------12\-
e----------------------------------------------------------------------------

e----------------------------------------------------------------------------
b----)---------------------------------------------------0---2--x------------
g--11---(11)--(11)\--0--2--3--4--5--6--7--9--9--9--7--0----2---------------0-
d------------------------------------------------------------------2--2\0----
a----------------------------------------------------------------------------
e----------------------------------------------------------------------------

e----------------------------------------------------------------------------
b--5--5--5---5--(5)\4--4\2--0------)--------------)---0--0-------------------
g--5--5--5---5--(5)\4--4-------1--2---(2)--2--2--2/3--0----------------------
d----------------------------------------------------------------------------
a----------------------------------------------------------------------------
e----------------------------------------------------------------------------

e--------)-----------------------------------)-------------------------------
b--12--14--14--12--0--------------------)--17-------0------------------)-----
g---------------------12--12--14--12--14---17---14--0--7--7--9--9----(9)-----
d------------------------------------------------------------------0---------
a----------------------------------------------------------------------------
e----------------------------------------------------------------------------

e----------------------------------------------------------------------------
b-------------)------------0-------------------------------------------------
g-----0--5--14--14--12--9--0--7--9--10--10--10\7--2--------------------------
d--x-----5-----------------------------------------------)-------------------
a------------------------------------------------------12----(12)------------
e----------------------------------------------------------------------------

e----------------------------------------------------------------------------
b----------------------------------------------------------------------------
g----------------------------------------------------------------------------
d----)----------------)-------------12----------------------12---------------
a--12---12--(12)----12---(12)---12------(12)--12--(12)--12------(12)---------
e----------------------------------------------------------------------------

e----------------------------------------------------------------------------
b------------------------------------------------0---------------------------
g------------------------------------------------0---------------------------
d----)--12------------------)--------------------0---------------------------
a--12-------(12)----------12-------------------------------------------------
e----------------------------------------------------------------------------
  development and support by
dmitry ivanov