rock
 
|tablatures   |lyrics   |discussion forums   |more tabs @ XGuitar.com

Nirvana tabs

Serve The Servants bass tab

Song: Serve The Servants
Artist: Nirvana
Album: In Utero
Tuning: Standard

Verse
G----------------1---|
D--------------------|
A--------------------|
E---2---2----0-------|

Chorus:
G-----------------------------------------------|
D-----------------------------------------------|
A---7--7--7--7---7---7---4--4--4--4---4---6-----|
E---5--5--5--5---5---5--------------------------|

Bridge:
G-----------------------------------------------------------|
D-----------------------------------------------------------|
A-----------------------------------/-3--3--3--3--3--3------|
E---2--2--2--2--2--2--2--2--2---------------------------0---|
  development and support by
dmitry ivanov