rock
 
|tablatures   |lyrics   |discussion forums   |more tabs @ XGuitar.com

Nirvana tabs

Rape Me guitar tab

From SG1967@aol.com Thu May  8 16:48:30 1997
Date: Sun, 27 Apr 1997 17:47:35 -0400 (EDT)
From: SG1967@aol.com
To: guitar@olga.net
Subject: rape me tab

Rape Me
Nirvana

Intro
Eb|--X----X----X----X---
Bb|--X----X----X----X---
Gb|--X----X----X----X---
Db|--X----X----X----X---
Ab|--X----X----X----X---
Eb|--X----X----X----X---

Main Riff
Gb|---2-2-X-X-X--5-5--------------------------
Db|---2-2-X-X-X--5-5-----2-2-X-X-X--5-5--
Ab|---0-0-X-X-X--3-3-----2-2-X-X-X--5-5--
Eb|---------------------------0-0-X-X-X--3-3--   

1st Verse
Bb|---------------5-------------------------
Gb|----2---------5--------2---------5-----
Db|----2-------5----------2---------5-----
Ab|--0----0-3---------------------5-------
Eb|----------------------0----0-3----------

Bridge
C#\\\\\\ A\\\\\\\  (4x) then F\\\\\\\ G\\\\\\\ Em


Song Structure
Intro
Main Riff (2x) clean
1st Verse(4x) clean
Main Riff (4x) distorted
Main Riff (4x) clean
Main Riff (4x) distorted
Bridge
Main Riff (4x) clean
Main Riff (12x) Distorted
End on A chord
  development and support by
dmitry ivanov