rock
 
|tablatures   |lyrics   |discussion forums   |more tabs @ XGuitar.com

Nirvana tabs

Rape Me bass tab



Rape Me

by Nirvana

from the album In Utero





   Verse

|-------------------------------------------------

|-------------------------------------------------

|------------3--3--3--3-------------------------

|---5--5--5---------------0--0--0--3--3--3--3---

    Rape me...





   Chorus

|-------------------------------------------------

|-------------------------------------------------

|-4-4-4-4-4-4---------------------------------7---

|--------------5-5-5-3-2-1--1--1--~--3--3--~------

   I'm not the only one...







or something like that...

  development and support by
dmitry ivanov