rock
 
|tablatures   |lyrics   |discussion forums   |more tabs @ XGuitar.com

Nirvana tabs

Polly (MTV Unplugged in N.Y.) bass tab

BassTab
Polly(Live)
Nirvana
Tabbed By Richard West (Esiso86@hotmail.com)
STANDARD G D A E TUNING
Ok well when ........ Plays Polly Live he likes to 
spice it up a bit as the normal Polly has the smallest
bit of bass work its something like this 

(Just before Kurt sings "Polly says")
G-------------------------------------|
D-------------------------------------|
A---------5-5-3-3---------------------|
E-0-0-3-3-----------------------------|

But the live one has constant Bass through out the song.
Ok on with the song.

The intro and first verse (this is played very softly)
G-------------------------------------|
D-------------------------------------|
A---------5-5-3-3---------------------|
E-0-0-3-3-----------------------------| x6

The chorus ("Isn't Me,have some seed")
G------------------------------------|
D------------------------------------|
A-5-5h4-3-3--------------------------|
E-----------3-3h5-6-6----------------| x8

Second verse (starts just before kurt says 'Polly Says")
...... plays a little louder and kinda
drowns out kurts guitar
G-----------------------------------|
D-----------------------------------|
A----------4h5-5-3-3-2-3------------|
E-0-00-3-3--------------------------| x6

Chorus
G-----------------------------------|
D-----------------------------------|
A-5-5h4-3-3-------------------------|
E-----------3-3h5-6-6---------------| x8

Third Verse
G-----------------------------------|
D-----------------------------------|
A----------4h5-5-3-3-2-3------------|
E-0-00-3-3--------------------------| x6


Chorus (Ends Song)
G-----------------------------------|
D-----------------------------------|
A-5-5h4-3-3-------------------------|
E-----------3-3h5-6-6/--------------| x8

Ok Thats really all there is i dunno how right i am. 
any queries email me at Esiso86@hotmail.com
  development and support by
dmitry ivanov