rock
 
|tablatures   |lyrics   |discussion forums   |more tabs @ XGuitar.com

Nirvana tabs

Polly bass tab

Song: polly

Artist: Nirvana

Tabbed by Ryan McGinness

cool song ,this is how i play it:

Riff one: "polly wanna cracker"

G ------------------------------------------------------------
D ------------------------------------------------------------
A -------------------------5--5----3----3--3--2---------------
E ----0----0--3--3----3/4-------------------------------------

Riff two: "isn't me"

G ------------------------------------------------------------
D ------------------------------------------------------------
A ----5----5--3--3----3---------------------------------------
E -------------------------3--3----5--5--5--3-----------------


this is my first tab so if you have any corrections or queries about
it, then E-mail me at ryanmcginness@hotmail.com

  development and support by
dmitry ivanov