rock
 
|tablatures   |lyrics   |discussion forums   |more tabs @ XGuitar.com

Nirvana tabs

Paper Cuts guitar tab

NIRVANA - Bleach
Tabbed by Kieren Hudson.
if anyone has comments, or suggestions mail me at kieren@mail.org

TABULATURE DEFINITION
)     =  bend
/     =  slide up
\     =  slide down
~~    =  vibrato
PM    =  palm mute
)r    =  bend and release 
^     =  hammeron/pulloff
x/x   =  pickscrape
*     =  uncontrolled feedback
NH    =  natural harmonic



Paper Cuts
Tune down 1/2 step.
 intro
e----------------------------------------------------------------------------
b----------------------------------------------------------------------------
g----------------------------------------------------------------------------
d----------------------------------------------------------------------------
a--2--2--2--2--2--2---2--2--2--2---------------------------------------------
e--1--1--1--1--1--1-*-1--1--1--1--x/x----------------------------------------
   PM--------------   PM--------  
   
 play that 3 times, then
e----------------------------------------0-----0-----------------------------
b-------------------------------------0--------------------------------------
g----------------------------------3--------3--------------------------------
d----------------------------------------------------------------------------
a--2--2--2--2--2--2---2--2--2--2---------------------------------------------
e--1--1--1--1--1--1-*-1--1--1--1---------------------------------------------
   PM--------------   PM--------

 verse
e----------------------------------------0-----0-----------------------------
b-------------------------------------0--------------------------------------
g----------------------------------3--------3--------------------------------
d----------------------------------------------------------------------------
a--2--2--2--2--2--2---2--2--2--2---------------------------------------------
e--1--1--1--1--1--1-*-1--1--1--1---------------------------------------------
   PM--------------   PM--------


 chorus 
 E5 with variation of
e--------0----0-------0-------0----------------------------------------------
b-----0------------0---------------------------------------------------------        
g--3-------3----3--------3---------------------------------------------------
d----------------------------------------------------------------------------
a----------------------------------------------------------------------------
e----------------------------------------------------------------------------

" I say so...."
e----------------------------------------------------------------------------
g----------------------------------------------------------------------------
b----------------------------------------------------------------------------
d--4--5--5--6--6--7--7--8--9\8--8--8------------------------------------------
a--4--5--5--6--6--7--7--8--9\8--8--8------------------------------------------
e--2--3--3--4--4--5--5--6--7\6--6--6------------------------------------------

 play that 4 times, then
e----------------------------------------------------------------------------
b----------------------------------------------------------------------------
g----------------------------------------------------------------------------
d--7\6-6-6---9\8-8-8---7\6-6-6---9\8-8-8-------------------------------------
a--7\6-6-6---9\8-8-8---7\6-6-6---9\8-8-8-------------------------------------
e--5\4-4-4---7\6-6-6---5\4-4-4---7\6-6-6-------------------------------------

 play that times 2, then
e----------------------------------------------------------------------------
b----------------------------------------------------------------------------
g----------------------------------------------------------------------------
d--4-4--4--4-4--4--4--4-----------------------------------------------------------------  
a--4-4--4--4-4--4--4--4-----------------------------------------------------------------  
e--2-2--2--2-2--2--2--2----------------------------------------------------------------- 
   PM-     PM-     PM
  development and support by
dmitry ivanov