rock
 
|tablatures   |lyrics   |discussion forums   |more tabs @ XGuitar.com

Nirvana tabs

On a Plain (MTV Unplugged in N.Y.) guitar tab

Song: On A Plain
Artis: Nirvana
Album: Unplugged
Tuning: Half step down
Tabbed by: Addi

Verse:

eb------------------------------------I
Bb------------------------------------I
Gb-7--7--7----------------------------I
Db-7--7--7---5-5-5---3--3--3---2-2-2--I
Ab-5--5--5---5-5-5---3--3--3---2-2-2--I
Eb-----------3-3-3---1--1--1---0-0-0--I
             Start this off...

Love myself part...

eb------------------------------------I
Bb------------------------------------I
Gb-7--7--7---5-5-5---4--4--4----------I
Db-7--7--7---5-5-5---4--4--4---7-7-7--I
Ab-5--5--5---3-3-3---2--2--2---7-7-7--I
Eb-----------------------------5-5-5--I
             Love my self...

eb------------------------------------I
Bb------------------------------------I
Gb-7--7--7----------------------------I
Db-7--7--7---5-5-5---3--3--3---2-2-2--I
Ab-5--5--5---5-5-5---3--3--3---2-2-2--I
Eb-----------3-3-3---1--1--1---0-0-0--I
             Know its wrong...

Chorus:

eb-------------------------------------------I
Bb------------------------10-10-10-10-10-10--I
Gb-7--7--7-------------10-10-10-10-10-10-10--I
Db-7--7--7---5--5--5---10-10-10-10-10-10-10--I
Ab-5--5--5---5--5--5---8--8--8--8--8--8--8---I
Eb-----------3--3--3-------------------------I

Bridge (just strum it trough):

eb------------------------------------------------I
Bb------------------------------------------------I
Gb------------------------------------------------I
Db-3--3--3---2--2--2---7--7--7---5-5-5-5-5-5-5-5--I
Ab-3--3--3---0--0--0---7--7--7---5-5-5-5-5-5-5-5--I
Eb-1--1--1---0--0--0---5--5--5---3-3-3-3-3-3-3-3--I
      Somewhere I have...

Enjoy Nirvana & respect Kurt Cobain.
  development and support by
dmitry ivanov