rock
 
|tablatures   |lyrics   |discussion forums   |more tabs @ XGuitar.com

Nirvana tabs

Oh, Me (MTV Unplugged in N.Y.) guitar tab

Nirvana (Unplugged in New York)

OH ME - tabbed by M. Oversteegen 


Tune down a half-Step (Eb Ab Db Gb Bb Eb)
Voicings:
E  - x22100
D  - x0023x
C  - x32010
G  - 320003
C5 - x3555x
D5 - x5777x
E5 - x7999x

Main Riff
  (NC)     E       (NC)    D       (NC)   D             C          E
E-------------0--|---------------|-------------------|------0--------0--|-
B-------------0--|-------------3-|------------3------|------1-0-0----0--|-
G-------------1--|-------------2-|------------2--0-0-|------0-0-0----1--|-
D-------2-2-2----|------2--0-0-0-|------2-0-0-0--0-0-|--2-2--------2----|-
A---0-2---2-2----|--0-2----0-0---|--0-2---0-0--------|--3-3--------2----|-
E-4--------------|-4-------------|-4-----------------|-------------0----|-

Chorus [Repeat 4x]              End Of Chorus
  G         E                     C            D         E  
E-3--3-3-3-----0-|-            -|-------------0-----|---------------0--|-
B-0--0-0-0-----0-|-            -|-------------1-----|-----3---------0--|-
G-0--0-0-0-----1-|-            -|---------0-0-0-0-0-|-2-2-2-2-2-----1--|-
D-----------2-2--|-            -|------2--2-2---2-2-|-0-0-0-2-2-0-0----|-
A-----------2-2--|-            -|--0-2----3-3---3-3-|-0-0---0-0-0-0----|-
E-----------0-0--|-            -|-4-----------------|------------------|-

If I had to lose a mile
If I had to touch feelings
I would lose my soul
The way I do

I don't have to think
I only have to do it
The results are always perfect
And that's old news

Would you like to hear my voice
Sweetened with emotion
Invented at your birth?

I can't see the end of me
My whole expanse I cannot see
I formulate infinity
And store it deep inside of me

Solo
E---------------------------3/2-----------2/5-5-5-3-2---------------------|-
B-------------------3-3^5~------5--(3-5)-5-------------5/3-----------3-5~-|-
G------------2-4~------------------------------------------4-2-2-2/4------|-
D------2-2h4--------------------------------------------------------------|-
A--0-2--------------------------------------------------------------------|-
E-4-----------------------------------------------------------------------|-

[Repeat verses and chorus]

Outro: C5 D5 E5
  development and support by
dmitry ivanov