rock
 
|tablatures   |lyrics   |discussion forums   |more tabs @ XGuitar.com

Nirvana tabs

New Wave Polly guitar tab

NIRVANA - INCESTICIDE

Tabbed by Kieren Hudson.
if anyone has comments, or suggestions mail me at kieren@mail.org

TABULATURE DEFINITION
)     =  bend
/     =  slide up
\     =  slide down
~~    =  vibrato
x/x   =  pickscrape
*     =  uncontrolled feedback



Polly
into/verse
e----------------------------------------------------------------------------
b-----------------------3--3-------------------------------------------------
g-----------------------2--2--x--5--5--5-------------------------------------              
d--2--x-----5--5--x--0--0--0--x--5--5--5--0----------------------------------
a--2--x--0--5--5--x--0--------x--3--3--3--0----------------------------------
e--0--x--0--3--3--x----------------------------------------------------------  
 
play that 6 times, then
 chorus
e----------------------------------------------------------------------------                       
b--3-----------------------------------3-------------------------------------
g--2--x--5--5--5-----0--0-----3--3--3--2--x--5--5--5-----0--0-----3--3--3----
d--0--x--5--5--5--0--0--0--x--3--3--3--0--x--5--5--5--0--0--0--x--3--3--3----
a-----x--3--3--3--0--x--x--x--1--1--1-----x--3--3--3--0--x--x--x--1--1--1----
e--------------------3--3--x-----------------------------3--3--x-------------

play that 4 times.
  development and support by
dmitry ivanov