rock
 
|tablatures   |lyrics   |discussion forums   |more tabs @ XGuitar.com

Nirvana tabs

Negative Creep bass tab


NEGATIVE CREEP BY NIRVANA BASS TAB





IT STARTS OFF WITH THE GUITAR BUT AFTER 7 MEASURES YOU PLAY





TUNED IN DROPPED D FLAT



G

D

A

D12-12-12-12-12-12-12-12-12\0



G

D

A

D0-0-0-0-0-0-0-0/12



THEN AT THE CHORUS IT GOES



G-----------------

D-----------------

A77p5-------5-8888

D----7-777-67-----



THEN THE BRIDGE GOES(THE PART WHERE THE GUITAR PLAYS AND KURT JUST SCREAMS)





G-----------------------------------------------

D------------------------1/2-----------------1/2

A-----------------------17^17---------------17^17

D16-16-16-16-16-16-16-16-----5-5-5-5-5-5-5-5-----



THAT'S IT

  development and support by
dmitry ivanov