rock
 
|tablatures   |lyrics   |discussion forums   |more tabs @ XGuitar.com

Nirvana tabs

Mr Moustache bass tab


"Mr. Moustache" - Nirvana

submitted by Christopher aka Achilles

 verse riff chorus
G|----------------|-----------------------------------------------------------------
D|----------------|-----------------------------------------------------------------
A|-2-------1------|2-03-33----------2-03-33--------203-33-----------2-03-33---------
E|3-3210123-321012|-------0-33333210-------0-33333-------0-33333210--------0-333334-


"Now you."
"Now you."
 ---------------------------------------------------------------------|
 ---------------------------------------------------------------------|
 -----------------3333-33-66666666-------------------3333-333-6666666-|
 55-5-553-5505-55------------------5505-430-5505-430------------------|
  development and support by
dmitry ivanov