rock
 
|tablatures   |lyrics   |discussion forums   |more tabs @ XGuitar.com

Nirvana tabs

Milk It bass tab

Nirvana
Milk It
   -------

Verse

G----------------------------------|
D----------------------------------|
A-1--4-----------------------------|
E---------3---0--3--3--4-0--0--0---|


Chorus

G-----------------------|
D-----------------------|
A--1---4----------------|
E---------3------0--3---|


  development and support by
dmitry ivanov