rock
 
|tablatures   |lyrics   |discussion forums   |more tabs @ XGuitar.com

Nirvana tabs

Mexican Seafood bass tab

Song: Mexican Seafood
Artist: Nirvana
Album: Incesticide
Tuning: Standard

G------------------------------|
D------------------------------|
A------------------------------|
E---5--5-5--3-3-3--0-0-0-0-0---|

G-------------------------------------------------------|
D-------------------------------------------------------|
A---------------------------------------------------3---|
E---0-3--5--5--5-5-5-5---5-5-5-5-5---3--3--5-5-5-5------|

G--------------------------------------|
D--------------------------------------|
A--------------------------3-3-2-0-2---|
E---0--3-3-3-3--0--3-------------------|

G-------------------------------|
D-------------------------------|
A------------------5--3--0--2---|
E---0--3--5-5-------------------|
  development and support by
dmitry ivanov