rock
 
|tablatures   |lyrics   |discussion forums   |more tabs @ XGuitar.com

Nirvana tabs

Love Buzz bass tab

From: John Sixkiller 
Artist:	Nirvana / Shocking Blue
Album:	Bleach, The Best Of Shocking Blue
Song:	Love Buzz

bass tab

Okay:

E-------------------------------------------------
B-------------------------------------------------
G-------------------------------------------------
D-------------------------------------------------
A--------------4--5--4--------------4--5--4-------
E--5--3--5--6-----------5--3--5--6------------5---

Chorus:

E--------------------------
B--------------------------
G--------------------------
D--------------------------
A--7--------7--7--------7--
E--5--3--3--5--5--3--3--5--

"Can you feel my love buzz?"
                  - Robby Van Lueween
  development and support by
dmitry ivanov