rock
 
|tablatures   |lyrics   |discussion forums   |more tabs @ XGuitar.com

Nirvana tabs

Lounge Act bass tab


Lounge Act

by Nirvana

from the album Nevermind





Intro/Verse



|---------------------------------------------

|----------4----------------------------------

|-------5-------------------5--3--2--0--------

|---/7--------2--3--2--3----------------------



|---------------------------------------------

|---------------------------------------------

|---2--5--4---------------3--2--0-------------

|-------------2--3--2--3-----------3----------





Pre-chorus



|---------------------------------------------

|---------------------------------------------

|----0--5-------------------------------------

|-0--------3----------------------------------

              Repeat



Chorus



|---------------------------------------------

|---------------------------------------------

|---------------------------------------------

|-5-5-5-5-4-4-4-3-----------------------------







/ - denotes slide up





  development and support by
dmitry ivanov