rock
 
|tablatures   |lyrics   |discussion forums   |more tabs @ XGuitar.com

Nirvana tabs

Lithium bass tab


 Subject: Nirvana-Lithium Bass Tab
 Date: Thu, 09 Jan


 LITHIUM

Nirvana

 *Tune down one whole step(low to high:D,G,C,F)

 Moderate Rock = 124

 |-------||-----------|---------------------------------|
 |---4---||----15-----|---------------------------------|
 ||=====||||=========||-------------------------7\------|
 |-------||-----------|---------------------------\-----|

 |---------------|------------------|-------------------------|
 |---------------|----------7-7-7---|-5--5--5--5-5--7-7--7\---|
 |---------------|-4-4----4-------7-|----------------------\\-|
 |--0---0-4---4--|------------------|-------------------------|

 |-------------------|---------------|------------------|
 |-------------------|---------------|----------7-7-7---|
 |-2--2--2-/5-5-5-5--|---------------|-4-4----4-------7-|
 |-------------------|--0---0-4---4--|------------------|

 |----------------------|------------------|---------------|
 |-5--5--5--5-5-/7-7--7-|------------------|---------------|
 |----------------------|-2--2--2-/5-5-5-5-|---------------|
 |----------------------|------------------|--0---0-4---4--|

 |------------------|---------------------|-----------------|
 |----------7-7-7---|-5--5--5--5-5/7--7-7-|-----------------|
 |-4-4----4-------7-|---------------------|-2--2-2-/5-5-5-5-|
 |------------------|---------------------|-----------------|

 %
 |--------------|----------------|-----------------|-------------|
 |--------------|----------------|-5----5--7---7\--|-------------|
 |-7---7-6----6-|-4----4---------|---------------\-|-2--2-2\5--5-|
 |--------------|---------5---5--|-----------------|-------------|

 |--------------|----------------|----------------|--------------|
 |--------------|----------------|-5----5--7---7\-|--------------|
 |-7---7-6----6-|-4----4---------|----------------|-2---2//5---5-|
 |--------------|---------5---5--|----------------|--------------|

 |--------------|----------------|----------------|--------------|
 |--------------|----------------|-5----5--7---7\-|--------------|
 |-7---7-6----6-|-4----4---------|----------------|-2--2--2/5--5-|
 |--------------|---------5---5--|----------------|--------------|

 |-------------|--------------|------------------|---------------|
 |-------------|--------------|-----5--------7---|---------------|
 |-7---7-6---6-|-4---4-3-0--0-|-3-3---3--5-5---5-|-2-2-2-2-5-5-5-|
 |-------------|--------------|------------------|---------------|

 |---------------|-----------------|-----------------------|
 |---------------|---------7-7-7---|-5--5--5--5-5-7--7-7\--|
 |---------------|-4-4---4-------7-|---------------------\-|
 |--0---0-4---4--|-----------------|-----------------------|

 |-----------------|---------------|----------------|
 |-----------------|---------------|--------7-7-7---|
 |-2-2--2-/5-5-5-5-|---------------|-4----4-------7-|
 |-----------------|--0---0-4---4--|----------------|

 |------------------------|-----------------|---------------|
 |-5--5--5--5-5-7--7--7\--|-----------------|---------------|
 |----------------------\-|-2-2--2-/5-5-5-5-|---------------|
 |------------------------|-----------------|--0---0-4---4--|

 |----------------|--------------------|------------------|
 |--------7-7-7---|-5-5--5--5-5/7-7--7-|------------------|
 |-4----4-------7-|--------------------|-2-2--2--/5-5-5-5-|
 |----------------|--------------------|------------------|


play Fill 1 4th time
 |---------------|----------------|----------------|
 |*--------------|--------------5-|-7--7-7-5---5---|
 |*--------3--3\-|------3---5-7---|----------7---7-|
 |--5--5-5-------|-5--5-----------|----------------|

 |------------------|--------------|----------------|
 |------------------|--------------|--------------5-|
 |-7-6-5-0--3-0-3-5-|--------3--3\-|------3---5-7---|
 |------------------|-5--5-5-------|-5--5-----------|

_______________ _______________

/1.
/2.
 |-----------------|------------------|------------------|
 |-7--7-7--5---5---|-----------------*|------------------|
 |-----------7---7-|-7-6-5-0--3-0-3-5*|-7-6-5-5--3-3-0-3-|
 |-----------------|------------------|------------------|


|
 (2nd time)To Coda -O-

|
 |--------------------|------------------|
 |--------------------|------------------|
 |--5-5-5-5--5-5-5-5--|-2-2-2-2--2-------|
 |--------------------|------------0-3-5-|

|

D.S.% al coda -O-

|
 |-------------|-----------------|----------------|--------------|
 |-------------|-----------------|-5----5--7---7\-|--------------|
 |-7---7-6---6-|-4----4----------|----------------|-2--2/5-5-5-5-|
 |-------------|---------5-3-4-5-|----------------|--------------|



 |
 -O- Coda
 |

 |--------------------|----------------------|
 |--------------------|----------------------|
 |--2-2-2-2--2--------|----------------------|
 |--------------0--3--|-0~~~~~~~~~~~~~~~~~~~~|

 FILL 1
 _______________________________________________________________

 |----------------|---7--------------|-------------------||
 |-7--7-7-5---5-7-|-7---7-6--5-------|------------5---5--||
 |----------7-----|------------7-5-3-|------------3---3--||
 |----------------|------------------|--5-5-5-5----------||
____________________________________________________________________________________-
  development and support by
dmitry ivanov