rock
 
|tablatures   |lyrics   |discussion forums   |more tabs @ XGuitar.com

Nirvana tabs

Lake Of Fire (MTV Unplugged in N.Y.) bass tab

Song: Lake Of Fire (Unplugged In New York)
Artist: Nirvana
Album: MTV's Unplugged In New York
Tuning: Standard

Chorus
G----------------------------------------------------------------------------|
D----------------------------------------------------------------------------|
A------------0--------2-2-2-0-----------0-2-2-2------------------------------|
E--2-2-2-0-0---2-2-2----------2-2-2-0-0---------0-0-2-2-2-2-0-0-2-2-2-2-0-0-2|


Verse
G------------------------------------------------------|
D------------------------------------------------------|
A--4-4-4-0-0-0-4-4-4-3-3-3-4-4-4-0-0-0-2-2-4-4-4-4-4---|
E------------------------------------------------------|

Solo part
G-----------------|
D-----------------|  Play this about 8 times
A-----------------|
E---2-2-2-0-0-2---|
  development and support by
dmitry ivanov