rock
 
|tablatures   |lyrics   |discussion forums   |more tabs @ XGuitar.com

Nirvana tabs

Jesus Doesnt Want Me For A Sunbeam bass tab

Nirvana - Jesus Doesn't Want Me For a Sunbeam
Tabbed By:Khafka
Email:nisse.c@chello.se

Intro

G--------------------------------------]
D--0--0-0--0-0--------------------0----]
A--------------------------0--0-0---0--]
E--------------3--3-3--3-3-------------]


Chorus

G------------------------------------------------------------------------------------
D--0--0-0--0-0--------------0--0-0--0-0-----------0--0-0--0-0-------------------0----
A------------------------------------------------------------------------0--0-0---0--
E--------------3--3-3--3-3-------------3--3-3--3-3-----------3--3-3--3-3-------------
  development and support by
dmitry ivanov