rock
 
|tablatures   |lyrics   |discussion forums   |more tabs @ XGuitar.com

Nirvana tabs

In His Hands guitar tab

From: Steve22067@aol.com
Date: Thu, 29 Jun 1995 03:24:30 -0400
Subject: "in His Hands" tab(problem solved)

In His Hands
by:Kurt Cobain
Transcribed by Steve22067
/=slide up
**Intro and Verse**
||-------------------------------------------------------||
||--------------------------------------------------------||
||-----4-4----------------------------4-4/--7-7-7----||
||-----4-4---5-5-5--4-4--2-2-2--4-4/--7-7-7--7-7--5-5-5-5-||
||-----2-2---5-5-5--4-4--2-2-2--2-2/--5-5-5--7-7--5-5-5-5---||
||------------3-3-3--2-2--0-0-0-------------------5-5--3-3-3-3---||
**Chorus**(part one)
||----------------------------------------------||
||----------------------------------------------||
||-------------8--8--------------7---7--7---||
||-----6--6---8--8--9--9--9---7--7--7---||
||-----6--6---6--6--9--9--9---5--5--5---||
||-----4--4-----------7--7--7--------------||
Play the chorus part one 6 times then play the chorus part two 1 time.
**Chorus**(part two)
||--------------------------------------||
||--------------------------------------||
||--------------------------------------||
||-6--6--6--6--6----4--4--4--4---||
||-6--6--6--6--6----4--4--4--4---||
||-4--4--4--4--4----2--2--2--2---||
**Interlude**
||------------------------------------------------------------||
||-------------------------------------------------------------||
||--------4-----------------------------0---------------0----||
||--------------------------5----------------------------------||
||---2---------------------------------------------------------||
||--------------0----3-------------2-----------2-------------||

I'm not sure if I got all the strumming right but to make sure, just listen
to the song.  
Send any comments or corrections to Steve22067@aol.com
  development and support by
dmitry ivanov