rock
 
|tablatures   |lyrics   |discussion forums   |more tabs @ XGuitar.com

Nirvana tabs

In Bloom bass tab

IN BLOOM

CORRECT VERSION
INTRO X2
G--------------------
D--------------------
A-1-1-1-------------
E---------4-1-1-1-3

VERSE x6 FOR FIRST VERSE X4 FOR SECOND VERSE X3 FOR GUITAR SOLO
G--------------------------------------------
D---------------------------------------------
A------------------------6-6-666-----------
E-6-6-666-2-2-222------------777\555

CHORUS X2
G----------------------------------------------------------------
D-----------------------------------------------------------------
A------------------------------------------------------------------
E-666/3--666/3--666/3--666/3--333/6--333/6------


  development and support by
dmitry ivanov